ISO-10303-21;
HEADER;
/* Generated by software containing ST-Developer
 * from STEP Tools, Inc. (www.steptools.com) 
 */

FILE_DESCRIPTION(
/* description */ (''),
/* implementation_level */ '2;1');

FILE_NAME(
/* name */ 'Jointed Arm Base Disc.step',
/* time_stamp */ '2025-05-01T03:15:17-04:00',
/* author */ (''),
/* organization */ (''),
/* preprocessor_version */ 'ST-DEVELOPER v20.1',
/* originating_system */ 'Autodesk Translation Framework v14.4.0.0',
/* authorisation */ '');

FILE_SCHEMA (('AUTOMOTIVE_DESIGN { 1 0 10303 214 3 1 1 }'));
ENDSEC;

DATA;
#10=MECHANICAL_DESIGN_GEOMETRIC_PRESENTATION_REPRESENTATION('',(#13),#345);
#11=SHAPE_REPRESENTATION_RELATIONSHIP('SRR','None',#352,#12);
#12=ADVANCED_BREP_SHAPE_REPRESENTATION('',(#14),#344);
#13=STYLED_ITEM('',(#361),#14);
#14=MANIFOLD_SOLID_BREP('Body1',#194);
#15=FACE_BOUND('',#49,.T.);
#16=FACE_BOUND('',#50,.T.);
#17=FACE_BOUND('',#51,.T.);
#18=FACE_BOUND('',#52,.T.);
#19=FACE_BOUND('',#53,.T.);
#20=FACE_BOUND('',#54,.T.);
#21=FACE_BOUND('',#62,.T.);
#22=FACE_BOUND('',#63,.T.);
#23=FACE_BOUND('',#64,.T.);
#24=FACE_BOUND('',#65,.T.);
#25=FACE_BOUND('',#66,.T.);
#26=FACE_BOUND('',#67,.T.);
#27=PLANE('',#213);
#28=PLANE('',#232);
#29=CYLINDRICAL_SURFACE('',#211,3.5);
#30=CYLINDRICAL_SURFACE('',#220,0.2);
#31=CYLINDRICAL_SURFACE('',#222,0.2);
#32=CYLINDRICAL_SURFACE('',#224,0.2);
#33=CYLINDRICAL_SURFACE('',#226,0.2);
#34=CYLINDRICAL_SURFACE('',#228,0.2);
#35=CYLINDRICAL_SURFACE('',#230,0.2);
#36=FACE_OUTER_BOUND('',#46,.T.);
#37=FACE_OUTER_BOUND('',#47,.T.);
#38=FACE_OUTER_BOUND('',#48,.T.);
#39=FACE_OUTER_BOUND('',#55,.T.);
#40=FACE_OUTER_BOUND('',#56,.T.);
#41=FACE_OUTER_BOUND('',#57,.T.);
#42=FACE_OUTER_BOUND('',#58,.T.);
#43=FACE_OUTER_BOUND('',#59,.T.);
#44=FACE_OUTER_BOUND('',#60,.T.);
#45=FACE_OUTER_BOUND('',#61,.T.);
#46=EDGE_LOOP('',(#137,#138,#139,#140));
#47=EDGE_LOOP('',(#141,#142,#143,#144));
#48=EDGE_LOOP('',(#145));
#49=EDGE_LOOP('',(#146));
#50=EDGE_LOOP('',(#147));
#51=EDGE_LOOP('',(#148));
#52=EDGE_LOOP('',(#149));
#53=EDGE_LOOP('',(#150));
#54=EDGE_LOOP('',(#151));
#55=EDGE_LOOP('',(#152,#153,#154,#155));
#56=EDGE_LOOP('',(#156,#157,#158,#159));
#57=EDGE_LOOP('',(#160,#161,#162,#163));
#58=EDGE_LOOP('',(#164,#165,#166,#167));
#59=EDGE_LOOP('',(#168,#169,#170,#171));
#60=EDGE_LOOP('',(#172,#173,#174,#175));
#61=EDGE_LOOP('',(#176));
#62=EDGE_LOOP('',(#177));
#63=EDGE_LOOP('',(#178));
#64=EDGE_LOOP('',(#179));
#65=EDGE_LOOP('',(#180));
#66=EDGE_LOOP('',(#181));
#67=EDGE_LOOP('',(#182));
#68=LINE('',#298,#76);
#69=LINE('',#303,#77);
#70=LINE('',#320,#78);
#71=LINE('',#324,#79);
#72=LINE('',#328,#80);
#73=LINE('',#332,#81);
#74=LINE('',#336,#82);
#75=LINE('',#340,#83);
#76=VECTOR('',#239,3.45);
#77=VECTOR('',#246,3.5);
#78=VECTOR('',#265,0.2);
#79=VECTOR('',#270,0.2);
#80=VECTOR('',#275,0.2);
#81=VECTOR('',#280,0.2);
#82=VECTOR('',#285,0.2);
#83=VECTOR('',#290,0.2);
#84=CIRCLE('',#209,3.5);
#85=CIRCLE('',#210,3.4);
#86=CIRCLE('',#212,3.5);
#87=CIRCLE('',#214,0.2);
#88=CIRCLE('',#215,0.2);
#89=CIRCLE('',#216,0.2);
#90=CIRCLE('',#217,0.2);
#91=CIRCLE('',#218,0.2);
#92=CIRCLE('',#219,0.2);
#93=CIRCLE('',#221,0.2);
#94=CIRCLE('',#223,0.2);
#95=CIRCLE('',#225,0.2);
#96=CIRCLE('',#227,0.2);
#97=CIRCLE('',#229,0.2);
#98=CIRCLE('',#231,0.2);
#99=VERTEX_POINT('',#295);
#100=VERTEX_POINT('',#297);
#101=VERTEX_POINT('',#301);
#102=VERTEX_POINT('',#305);
#103=VERTEX_POINT('',#307);
#104=VERTEX_POINT('',#309);
#105=VERTEX_POINT('',#311);
#106=VERTEX_POINT('',#313);
#107=VERTEX_POINT('',#315);
#108=VERTEX_POINT('',#318);
#109=VERTEX_POINT('',#322);
#110=VERTEX_POINT('',#326);
#111=VERTEX_POINT('',#330);
#112=VERTEX_POINT('',#334);
#113=VERTEX_POINT('',#338);
#114=EDGE_CURVE('',#99,#99,#84,.T.);
#115=EDGE_CURVE('',#99,#100,#68,.T.);
#116=EDGE_CURVE('',#100,#100,#85,.T.);
#117=EDGE_CURVE('',#101,#101,#86,.T.);
#118=EDGE_CURVE('',#101,#99,#69,.T.);
#119=EDGE_CURVE('',#102,#102,#87,.T.);
#120=EDGE_CURVE('',#103,#103,#88,.T.);
#121=EDGE_CURVE('',#104,#104,#89,.T.);
#122=EDGE_CURVE('',#105,#105,#90,.T.);
#123=EDGE_CURVE('',#106,#106,#91,.T.);
#124=EDGE_CURVE('',#107,#107,#92,.T.);
#125=EDGE_CURVE('',#108,#108,#93,.T.);
#126=EDGE_CURVE('',#108,#107,#70,.T.);
#127=EDGE_CURVE('',#109,#109,#94,.T.);
#128=EDGE_CURVE('',#109,#106,#71,.T.);
#129=EDGE_CURVE('',#110,#110,#95,.T.);
#130=EDGE_CURVE('',#110,#105,#72,.T.);
#131=EDGE_CURVE('',#111,#111,#96,.T.);
#132=EDGE_CURVE('',#111,#104,#73,.T.);
#133=EDGE_CURVE('',#112,#112,#97,.T.);
#134=EDGE_CURVE('',#112,#103,#74,.T.);
#135=EDGE_CURVE('',#113,#113,#98,.T.);
#136=EDGE_CURVE('',#113,#102,#75,.T.);
#137=ORIENTED_EDGE('',*,*,#114,.T.);
#138=ORIENTED_EDGE('',*,*,#115,.T.);
#139=ORIENTED_EDGE('',*,*,#116,.T.);
#140=ORIENTED_EDGE('',*,*,#115,.F.);
#141=ORIENTED_EDGE('',*,*,#117,.F.);
#142=ORIENTED_EDGE('',*,*,#118,.T.);
#143=ORIENTED_EDGE('',*,*,#114,.F.);
#144=ORIENTED_EDGE('',*,*,#118,.F.);
#145=ORIENTED_EDGE('',*,*,#116,.F.);
#146=ORIENTED_EDGE('',*,*,#119,.T.);
#147=ORIENTED_EDGE('',*,*,#120,.T.);
#148=ORIENTED_EDGE('',*,*,#121,.T.);
#149=ORIENTED_EDGE('',*,*,#122,.T.);
#150=ORIENTED_EDGE('',*,*,#123,.T.);
#151=ORIENTED_EDGE('',*,*,#124,.T.);
#152=ORIENTED_EDGE('',*,*,#125,.F.);
#153=ORIENTED_EDGE('',*,*,#126,.T.);
#154=ORIENTED_EDGE('',*,*,#124,.F.);
#155=ORIENTED_EDGE('',*,*,#126,.F.);
#156=ORIENTED_EDGE('',*,*,#127,.F.);
#157=ORIENTED_EDGE('',*,*,#128,.T.);
#158=ORIENTED_EDGE('',*,*,#123,.F.);
#159=ORIENTED_EDGE('',*,*,#128,.F.);
#160=ORIENTED_EDGE('',*,*,#129,.F.);
#161=ORIENTED_EDGE('',*,*,#130,.T.);
#162=ORIENTED_EDGE('',*,*,#122,.F.);
#163=ORIENTED_EDGE('',*,*,#130,.F.);
#164=ORIENTED_EDGE('',*,*,#131,.F.);
#165=ORIENTED_EDGE('',*,*,#132,.T.);
#166=ORIENTED_EDGE('',*,*,#121,.F.);
#167=ORIENTED_EDGE('',*,*,#132,.F.);
#168=ORIENTED_EDGE('',*,*,#133,.F.);
#169=ORIENTED_EDGE('',*,*,#134,.T.);
#170=ORIENTED_EDGE('',*,*,#120,.F.);
#171=ORIENTED_EDGE('',*,*,#134,.F.);
#172=ORIENTED_EDGE('',*,*,#135,.F.);
#173=ORIENTED_EDGE('',*,*,#136,.T.);
#174=ORIENTED_EDGE('',*,*,#119,.F.);
#175=ORIENTED_EDGE('',*,*,#136,.F.);
#176=ORIENTED_EDGE('',*,*,#117,.T.);
#177=ORIENTED_EDGE('',*,*,#125,.T.);
#178=ORIENTED_EDGE('',*,*,#127,.T.);
#179=ORIENTED_EDGE('',*,*,#129,.T.);
#180=ORIENTED_EDGE('',*,*,#131,.T.);
#181=ORIENTED_EDGE('',*,*,#133,.T.);
#182=ORIENTED_EDGE('',*,*,#135,.T.);
#183=CONICAL_SURFACE('',#208,3.45,0.785398163397449);
#184=ADVANCED_FACE('',(#36),#183,.T.);
#185=ADVANCED_FACE('',(#37),#29,.T.);
#186=ADVANCED_FACE('',(#38,#15,#16,#17,#18,#19,#20),#27,.F.);
#187=ADVANCED_FACE('',(#39),#30,.F.);
#188=ADVANCED_FACE('',(#40),#31,.F.);
#189=ADVANCED_FACE('',(#41),#32,.F.);
#190=ADVANCED_FACE('',(#42),#33,.F.);
#191=ADVANCED_FACE('',(#43),#34,.F.);
#192=ADVANCED_FACE('',(#44),#35,.F.);
#193=ADVANCED_FACE('',(#45,#21,#22,#23,#24,#25,#26),#28,.T.);
#194=CLOSED_SHELL('',(#184,#185,#186,#187,#188,#189,#190,#191,#192,#193));
#195=DERIVED_UNIT_ELEMENT(#197,1.);
#196=DERIVED_UNIT_ELEMENT(#347,-3.);
#197=(
MASS_UNIT()
NAMED_UNIT(*)
SI_UNIT(.KILO.,.GRAM.)
);
#198=DERIVED_UNIT((#195,#196));
#199=MEASURE_REPRESENTATION_ITEM('density measure',
POSITIVE_RATIO_MEASURE(7850.),#198);
#200=PROPERTY_DEFINITION_REPRESENTATION(#205,#202);
#201=PROPERTY_DEFINITION_REPRESENTATION(#206,#203);
#202=REPRESENTATION('material name',(#204),#344);
#203=REPRESENTATION('density',(#199),#344);
#204=DESCRIPTIVE_REPRESENTATION_ITEM('Steel','Steel');
#205=PROPERTY_DEFINITION('material property','material name',#354);
#206=PROPERTY_DEFINITION('material property','density of part',#354);
#207=AXIS2_PLACEMENT_3D('',#293,#233,#234);
#208=AXIS2_PLACEMENT_3D('',#294,#235,#236);
#209=AXIS2_PLACEMENT_3D('',#296,#237,#238);
#210=AXIS2_PLACEMENT_3D('',#299,#240,#241);
#211=AXIS2_PLACEMENT_3D('',#300,#242,#243);
#212=AXIS2_PLACEMENT_3D('',#302,#244,#245);
#213=AXIS2_PLACEMENT_3D('',#304,#247,#248);
#214=AXIS2_PLACEMENT_3D('',#306,#249,#250);
#215=AXIS2_PLACEMENT_3D('',#308,#251,#252);
#216=AXIS2_PLACEMENT_3D('',#310,#253,#254);
#217=AXIS2_PLACEMENT_3D('',#312,#255,#256);
#218=AXIS2_PLACEMENT_3D('',#314,#257,#258);
#219=AXIS2_PLACEMENT_3D('',#316,#259,#260);
#220=AXIS2_PLACEMENT_3D('',#317,#261,#262);
#221=AXIS2_PLACEMENT_3D('',#319,#263,#264);
#222=AXIS2_PLACEMENT_3D('',#321,#266,#267);
#223=AXIS2_PLACEMENT_3D('',#323,#268,#269);
#224=AXIS2_PLACEMENT_3D('',#325,#271,#272);
#225=AXIS2_PLACEMENT_3D('',#327,#273,#274);
#226=AXIS2_PLACEMENT_3D('',#329,#276,#277);
#227=AXIS2_PLACEMENT_3D('',#331,#278,#279);
#228=AXIS2_PLACEMENT_3D('',#333,#281,#282);
#229=AXIS2_PLACEMENT_3D('',#335,#283,#284);
#230=AXIS2_PLACEMENT_3D('',#337,#286,#287);
#231=AXIS2_PLACEMENT_3D('',#339,#288,#289);
#232=AXIS2_PLACEMENT_3D('',#341,#291,#292);
#233=DIRECTION('axis',(0.,0.,1.));
#234=DIRECTION('refdir',(1.,0.,0.));
#235=DIRECTION('center_axis',(0.,0.,1.));
#236=DIRECTION('ref_axis',(1.,0.,0.));
#237=DIRECTION('center_axis',(0.,0.,-1.));
#238=DIRECTION('ref_axis',(1.,0.,0.));
#239=DIRECTION('',(0.707106781186548,8.65956056235494E-17,-0.707106781186547));
#240=DIRECTION('center_axis',(0.,0.,1.));
#241=DIRECTION('ref_axis',(1.,0.,0.));
#242=DIRECTION('center_axis',(0.,0.,1.));
#243=DIRECTION('ref_axis',(1.,0.,0.));
#244=DIRECTION('center_axis',(0.,0.,1.));
#245=DIRECTION('ref_axis',(1.,0.,0.));
#246=DIRECTION('',(0.,0.,-1.));
#247=DIRECTION('center_axis',(0.,0.,1.));
#248=DIRECTION('ref_axis',(1.,0.,0.));
#249=DIRECTION('center_axis',(0.,0.,1.));
#250=DIRECTION('ref_axis',(1.,0.,0.));
#251=DIRECTION('center_axis',(0.,0.,1.));
#252=DIRECTION('ref_axis',(0.5,0.866025403784438,0.));
#253=DIRECTION('center_axis',(0.,0.,1.));
#254=DIRECTION('ref_axis',(-0.5,0.866025403784439,0.));
#255=DIRECTION('center_axis',(0.,0.,1.));
#256=DIRECTION('ref_axis',(-1.,1.22464679914735E-16,0.));
#257=DIRECTION('center_axis',(0.,0.,1.));
#258=DIRECTION('ref_axis',(-0.5,-0.866025403784438,0.));
#259=DIRECTION('center_axis',(0.,0.,1.));
#260=DIRECTION('ref_axis',(0.499999999999999,-0.866025403784439,0.));
#261=DIRECTION('center_axis',(0.,0.,-1.));
#262=DIRECTION('ref_axis',(0.499999999999999,-0.866025403784439,0.));
#263=DIRECTION('center_axis',(0.,0.,-1.));
#264=DIRECTION('ref_axis',(0.499999999999999,-0.866025403784439,0.));
#265=DIRECTION('',(0.,0.,-1.));
#266=DIRECTION('center_axis',(0.,0.,-1.));
#267=DIRECTION('ref_axis',(-0.5,-0.866025403784438,0.));
#268=DIRECTION('center_axis',(0.,0.,-1.));
#269=DIRECTION('ref_axis',(-0.5,-0.866025403784438,0.));
#270=DIRECTION('',(0.,0.,-1.));
#271=DIRECTION('center_axis',(0.,0.,-1.));
#272=DIRECTION('ref_axis',(-1.,1.22464679914735E-16,0.));
#273=DIRECTION('center_axis',(0.,0.,-1.));
#274=DIRECTION('ref_axis',(-1.,1.22464679914735E-16,0.));
#275=DIRECTION('',(0.,0.,-1.));
#276=DIRECTION('center_axis',(0.,0.,-1.));
#277=DIRECTION('ref_axis',(-0.5,0.866025403784439,0.));
#278=DIRECTION('center_axis',(0.,0.,-1.));
#279=DIRECTION('ref_axis',(-0.5,0.866025403784439,0.));
#280=DIRECTION('',(0.,0.,-1.));
#281=DIRECTION('center_axis',(0.,0.,-1.));
#282=DIRECTION('ref_axis',(0.5,0.866025403784438,0.));
#283=DIRECTION('center_axis',(0.,0.,-1.));
#284=DIRECTION('ref_axis',(0.5,0.866025403784438,0.));
#285=DIRECTION('',(0.,0.,-1.));
#286=DIRECTION('center_axis',(0.,0.,-1.));
#287=DIRECTION('ref_axis',(1.,0.,0.));
#288=DIRECTION('center_axis',(0.,0.,-1.));
#289=DIRECTION('ref_axis',(1.,0.,0.));
#290=DIRECTION('',(0.,0.,-1.));
#291=DIRECTION('center_axis',(0.,0.,1.));
#292=DIRECTION('ref_axis',(1.,0.,0.));
#293=CARTESIAN_POINT('',(0.,0.,0.));
#294=CARTESIAN_POINT('Origin',(0.,0.,0.05));
#295=CARTESIAN_POINT('',(-3.5,4.28626379701574E-16,0.1));
#296=CARTESIAN_POINT('Origin',(0.,0.,0.1));
#297=CARTESIAN_POINT('',(-3.4,-4.163799117101E-16,0.));
#298=CARTESIAN_POINT('',(-3.45,-4.22503145705837E-16,0.05));
#299=CARTESIAN_POINT('Origin',(0.,0.,0.));
#300=CARTESIAN_POINT('Origin',(0.,0.,0.));
#301=CARTESIAN_POINT('',(-3.5,-4.28626379701574E-16,0.3));
#302=CARTESIAN_POINT('Origin',(0.,0.,0.3));
#303=CARTESIAN_POINT('',(-3.5,-4.28626379701574E-16,0.));
#304=CARTESIAN_POINT('Origin',(0.,0.,0.));
#305=CARTESIAN_POINT('',(-0.2,2.70000004023314,0.));
#306=CARTESIAN_POINT('Origin',(0.,2.70000004023314,0.));
#307=CARTESIAN_POINT('',(-2.4382686250609,1.17679493935968,0.));
#308=CARTESIAN_POINT('Origin',(-2.3382686250609,1.35000002011657,0.));
#309=CARTESIAN_POINT('',(-2.2382686250609,-1.52320510087345,0.));
#310=CARTESIAN_POINT('Origin',(-2.3382686250609,-1.35000002011657,0.));
#311=CARTESIAN_POINT('',(0.2,-2.70000004023314,0.));
#312=CARTESIAN_POINT('Origin',(-3.30654640696923E-16,-2.70000004023314,
0.));
#313=CARTESIAN_POINT('',(2.4382686250609,-1.17679493935968,0.));
#314=CARTESIAN_POINT('Origin',(2.3382686250609,-1.35000002011657,0.));
#315=CARTESIAN_POINT('',(2.2382686250609,1.52320510087345,0.));
#316=CARTESIAN_POINT('Origin',(2.3382686250609,1.35000002011657,0.));
#317=CARTESIAN_POINT('Origin',(2.3382686250609,1.35000002011657,0.3));
#318=CARTESIAN_POINT('',(2.2382686250609,1.52320510087345,0.3));
#319=CARTESIAN_POINT('Origin',(2.3382686250609,1.35000002011657,0.3));
#320=CARTESIAN_POINT('',(2.2382686250609,1.52320510087345,0.3));
#321=CARTESIAN_POINT('Origin',(2.3382686250609,-1.35000002011657,0.3));
#322=CARTESIAN_POINT('',(2.4382686250609,-1.17679493935968,0.3));
#323=CARTESIAN_POINT('Origin',(2.3382686250609,-1.35000002011657,0.3));
#324=CARTESIAN_POINT('',(2.4382686250609,-1.17679493935968,0.3));
#325=CARTESIAN_POINT('Origin',(-3.30654640696923E-16,-2.70000004023314,
0.3));
#326=CARTESIAN_POINT('',(0.2,-2.70000004023314,0.3));
#327=CARTESIAN_POINT('Origin',(-3.30654640696923E-16,-2.70000004023314,
0.3));
#328=CARTESIAN_POINT('',(0.2,-2.70000004023314,0.3));
#329=CARTESIAN_POINT('Origin',(-2.3382686250609,-1.35000002011657,0.3));
#330=CARTESIAN_POINT('',(-2.2382686250609,-1.52320510087345,0.3));
#331=CARTESIAN_POINT('Origin',(-2.3382686250609,-1.35000002011657,0.3));
#332=CARTESIAN_POINT('',(-2.2382686250609,-1.52320510087345,0.3));
#333=CARTESIAN_POINT('Origin',(-2.3382686250609,1.35000002011657,0.3));
#334=CARTESIAN_POINT('',(-2.4382686250609,1.17679493935968,0.3));
#335=CARTESIAN_POINT('Origin',(-2.3382686250609,1.35000002011657,0.3));
#336=CARTESIAN_POINT('',(-2.4382686250609,1.17679493935968,0.3));
#337=CARTESIAN_POINT('Origin',(0.,2.70000004023314,0.3));
#338=CARTESIAN_POINT('',(-0.2,2.70000004023314,0.3));
#339=CARTESIAN_POINT('Origin',(0.,2.70000004023314,0.3));
#340=CARTESIAN_POINT('',(-0.2,2.70000004023314,0.3));
#341=CARTESIAN_POINT('Origin',(0.,0.,0.3));
#342=UNCERTAINTY_MEASURE_WITH_UNIT(LENGTH_MEASURE(0.001),#346,
'DISTANCE_ACCURACY_VALUE',
'Maximum model space distance between geometric entities at asserted c
onnectivities');
#343=UNCERTAINTY_MEASURE_WITH_UNIT(LENGTH_MEASURE(0.001),#346,
'DISTANCE_ACCURACY_VALUE',
'Maximum model space distance between geometric entities at asserted c
onnectivities');
#344=(
GEOMETRIC_REPRESENTATION_CONTEXT(3)
GLOBAL_UNCERTAINTY_ASSIGNED_CONTEXT((#342))
GLOBAL_UNIT_ASSIGNED_CONTEXT((#346,#348,#349))
REPRESENTATION_CONTEXT('','3D')
);
#345=(
GEOMETRIC_REPRESENTATION_CONTEXT(3)
GLOBAL_UNCERTAINTY_ASSIGNED_CONTEXT((#343))
GLOBAL_UNIT_ASSIGNED_CONTEXT((#346,#348,#349))
REPRESENTATION_CONTEXT('','3D')
);
#346=(
LENGTH_UNIT()
NAMED_UNIT(*)
SI_UNIT(.CENTI.,.METRE.)
);
#347=(
LENGTH_UNIT()
NAMED_UNIT(*)
SI_UNIT($,.METRE.)
);
#348=(
NAMED_UNIT(*)
PLANE_ANGLE_UNIT()
SI_UNIT($,.RADIAN.)
);
#349=(
NAMED_UNIT(*)
SI_UNIT($,.STERADIAN.)
SOLID_ANGLE_UNIT()
);
#350=SHAPE_DEFINITION_REPRESENTATION(#351,#352);
#351=PRODUCT_DEFINITION_SHAPE('',$,#354);
#352=SHAPE_REPRESENTATION('',(#207),#344);
#353=PRODUCT_DEFINITION_CONTEXT('part definition',#358,'design');
#354=PRODUCT_DEFINITION('(Unsaved)','(Unsaved)',#355,#353);
#355=PRODUCT_DEFINITION_FORMATION('',$,#360);
#356=PRODUCT_RELATED_PRODUCT_CATEGORY('(Unsaved)','(Unsaved)',(#360));
#357=APPLICATION_PROTOCOL_DEFINITION('international standard',
'automotive_design',2009,#358);
#358=APPLICATION_CONTEXT(
'Core Data for Automotive Mechanical Design Process');
#359=PRODUCT_CONTEXT('part definition',#358,'mechanical');
#360=PRODUCT('(Unsaved)','(Unsaved)',$,(#359));
#361=PRESENTATION_STYLE_ASSIGNMENT((#362));
#362=SURFACE_STYLE_USAGE(.BOTH.,#363);
#363=SURFACE_SIDE_STYLE('',(#364));
#364=SURFACE_STYLE_FILL_AREA(#365);
#365=FILL_AREA_STYLE('Steel - Satin',(#366));
#366=FILL_AREA_STYLE_COLOUR('Steel - Satin',#367);
#367=COLOUR_RGB('Steel - Satin',0.627450980392157,0.627450980392157,0.627450980392157);
ENDSEC;
END-ISO-10303-21;
